Another First Kiss

INTRO:   A    D     A    D

C      G               F       G
  I'm asleep but she's talking to me
C                G             F        G
  She's walking 'round wearing all of my clothes
   C        G      F         G
As she runs out of things to say
    C        G       F     G
And grabs my coat to walk away

F            G        C         Em
  How 'bout another first kiss, she said
F            G        C         Em     
  How 'bout another first kiss, I said
F         G           Am       D
  I want another first kiss like this
F           G          C       Em
  How 'bout another first kiss

Bridge
-----------------------2-----------------------------------------------------
-------5-2---------------2---------------------------------------------------
--2-4-2---4-2----2-4-2-----4-2-----------------------------------------------
-----------------------------------------------------------------------------
-----------------------------------------------------------------------------
-----------------------------------------------------------------------------

C       G               F   G
  Other people were too sentimental
C        G         F          G
  Always worrying about their hair
    C        G       F      G
Got tired of wasting all my time
    C        G   F      G
Now I'm not worrying at all

F            G        C         Em
  How 'bout another first kiss, she said
F            G        C         Em     
  How 'bout another first kiss, I said
F         G           Am       D
  I want another first kiss like this
F           G          C       Em
  How 'bout another first kiss

solo X2
-----------------------2-----------------------------------------------------
-------5-2---------------2--------------5-2----------------------------------
--2-4-2---4-2----2-4-2-----4-2-----2-4-2---4-2---2--1----1-2-1---------------
-------------------------------------------------------4-------4-2-----------
-----------------------------------------------------------------------------
-----------------------------------------------------------------------------

C           G            F      G
  You could tell me we belong together
C             G               F        G
  And I could tell you, you belong with me
     C        G      F         G
But we've run out of things to say
    C        G     F  G
And we'll be happy anyway, so

F            G        C         Em
  How 'bout another first kiss, she said
F            G        C         Em     
  How 'bout another first kiss, I said
F         G           Am       D
  I want another first kiss like this
F           G          C       Em
  How 'bout another first kiss

F            G        C         Em
  How 'bout another first kiss, she said
F            G        C         Em     
  How 'bout another first kiss, I said
F         G           Am       D
  I want another first kiss like this
F           G          C       Em
  How 'bout another first kiss

Copyright 2001 TMBG
B+ Chords    http://BPlusChords.tripod.com