I Am The King

Drop D tuning

Intro : Figure 1

D5  E5    E5   play 4 x

D?  D           D?    D
Sleep   come to me
C?              C        D?   D
Take me where I want to be
D?  D         D?   D
And    let me stay
C?            C      D?   D
Everything is far away

F5          C5            C5 D5   C5 D5
  And for a moment it's serene
F5          C5          Bb5
  And for a moment I control it
      A5
And I rule myself
       C5 D5     C5 D5
'Cause I am the  King (of nothing)
C5 D5     C5 D5
I am the  King.
D?  D    D?  D

D?  D        D? D
And   dream away
C?              C           D?  D
Everything that makes me pay.
D?  D          D?   D
Safe  from the world...
   C?              C            D?  D
Of broken love and boy and girl

F5          C5            C5 D5   C5 D5
  And for a moment it's serene
F5          C5          Bb5
  And for a moment I control it
      A5
And I rule myself
       C5 D5     C5 D5
'Cause I am the  King (of nothing)
       C5 D5     C5 D5
'Cause I am the  King (of nothing)
       C5 D5     C5 D5
'Cause I am the  King (of nothing)
C5 D5     C5 D5
I am the  King.

Figure 1    4 times
D5  E5    E5  play 8 times

D?  D           D?    D
Sleep   come to me
C?              C        D?   D
Take me where I want to be

F5          C5            C5 D5   C5 D5
  And for a moment it's serene
F5          C5          Bb5
  And for a moment I control it
      Bb5/A
And I lose myself
       G#5
'Cause no one else is coming after
D5 E5     D5 E5
I am the  King (of nothing)
D5 E5     D5 E5
I am the  King (of nothing)
D5 E5     D5 E5
I am the  King (of nothing)
C5 D5     C5 D5
I am the  King


Figure 1
Dm                      Asus                C                   Esus
------------1-----1-------------0-----0--------------------------------------
---------3-----3-----3--------3----3-----3-----------1-----1-----------------
------2--------------------2----------------------0-----0-----0-----------2--
---0--------------------0----------------------2-----------------------2-----
--------------------------------------------3-----------------------0--------
-----------------------------------------------------------------0-----------

Verse
D?                        D                   C?                 C
---------------4---4-----------------2---2--|-----------2---2-------------0---0----
------------3----3---3-------------3---3----|-------------1---1-------------1---1--
---------2----------------------2-----------|--------0-----------------0-----------
------0----------------------0--------------|-----2-----------------2--------------
--------------------------------------------|--3-----------------3-----------------
---0----------------------0-----------------|--------------------------------------

A5 = x02xxx
Bb5= x13xxx
C5 = x35xxx
D5 = x57xxx
F5 = x33xxx
G#5= 66xxxx

2002 Jelly Jam
B+ Chords    http://BPlusChords.tripod.com